Blogia
musica316

DRAIN YOU

BIEN DRAIN YOU

 

Intro/Verse (clean guitar) 
|-----------------------------------------------------|
|-----------------------------------------------------|
|-5-5-5/9-9-9-------7-7-7--5-5-5/9-9-9-------7-7-7----|
|-5-5-5/9-9-9-7-7-0-7-7-7--5-5-5/9-9-9-7-7-0-7-7-7----|
|-3-3-3/7-7-7-7-7-0-5-5-5--3-3-3/7-7-7-7-7-0-5-5-5----|
|-------------5-5-0--------------------5-5-0----------|
One baby to another says I’m lucky to met you

(Distortion) 6x
|---------------------------|
|---------------------------|
|-5-5-5/9-9-9---------------|
|-5-5-5/9-9-9-7-7-0-7-7-7---|
|-3-3-3/7-7-7-7-7-0-5-5-5---|
|-------------5-5-0---------|
I don’t care what...
[ Tab from: http://www.guitaretab.com/n/nirvana/13380.html ]
Chorus (Distortion) 6x
|---------------------------|--------------------|
|---------------------------|--------------------|
|---------7-7-7-7-7-7-7-----|-5---3--------------|
|-5-5-3-3-7-7-7-7-7-7-7-----|-5---3---7~~--------|
|-5-5-3-3-5-5-5-5-5-5-5-----|-3---1---7~~--------|
|-3-3-1-1-------------------|---------5~~--------|
Chew your meat... I like you

Then go back and play the Verse than the chorus again
Than play this,

(Distortion) Last A5 chord play with a clean tone (4x)
|------------------------------------------------|
|------------------------------------------------|
|------------------------------------------------|
|------------------------------------------------|
|-777777777777777--7~~---777777777777777--7~~----|
|-555555555555555--5~~---555555555555555--5~~----|
Distortion.....| Distortion.....|


Then play this, Distortion, (A5 chord 40 times!)
|-----------------------------------------------|
|-----------------------------------------------|
|-----------------------------------------------|
|-----------------------------------------------|
|-7777777777777777777777777777777777777777------|
|-5555555555555555555555555555555555555555------|
¿Y esta publicidad? Puedes eliminarla si quieres.
¿Y esta publicidad? Puedes eliminarla si quieres

1 comentario

zariz -

muy buena kancion heeeee y x sierto esa la baile el dia de misalida de 6° y la pretendo bailar el dia de mis XV AÑOS :P
¿Y esta publicidad? Puedes eliminarla si quieres